0
SECTION
2
HEADER
9
$INSUNITS
70
4
9
$ACADVER
1
AC1014
9
$HANDSEED
5
FFFF
0
ENDSEC
0
SECTION
2
TABLES
0
TABLE
2
VPORT
5
8
100
AcDbSymbolTable
0
ENDTAB
0
TABLE
2
LTYPE
5
5
100
AcDbSymbolTable
0
LTYPE
5
14
100
AcDbSymbolTableRecord
100
AcDbLinetypeTableRecord
2
BYBLOCK
70
0
0
LTYPE
5
15
100
AcDbSymbolTableRecord
100
AcDbLinetypeTableRecord
2
BYLAYER
70
0
0
ENDTAB
0
TABLE
2
LAYER
5
2
100
AcDbSymbolTable
70
2
0
LAYER
5
50
100
AcDbSymbolTableRecord
100
AcDbLayerTableRecord
2
0
70
0
6
CONTINUOUS
0
ENDTAB
0
TABLE
2
STYLE
5
3
100
AcDbSymbolTable
70
1
0
STYLE
5
11
100
AcDbSymbolTableRecord
100
AcDbTextStyleTableRecord
2
STANDARD
70
0
0
ENDTAB
0
TABLE
2
VIEW
5
6
100
AcDbSymbolTable
70
0
0
ENDTAB
0
TABLE
2
UCS
5
7
100
AcDbSymbolTable
70
0
0
ENDTAB
0
TABLE
2
APPID
5
9
100
AcDbSymbolTable
70
2
0
APPID
5
12
100
AcDbSymbolTableRecord
100
AcDbRegAppTableRecord
2
ACAD
70
0
0
ENDTAB
0
TABLE
2
DIMSTYLE
5
A
100
AcDbSymbolTable
70
1
0
ENDTAB
0
TABLE
2
BLOCK_RECORD
5
1
100
AcDbSymbolTable
70
1
0
BLOCK_RECORD
5
1F
100
AcDbSymbolTableRecord
100
AcDbBlockTableRecord
2
*MODEL_SPACE
0
BLOCK_RECORD
5
1B
100
AcDbSymbolTableRecord
100
AcDbBlockTableRecord
2
*PAPER_SPACE
0
ENDTAB
0
ENDSEC
0
SECTION
2
BLOCKS
0
BLOCK
5
20
100
AcDbEntity
100
AcDbBlockBegin
2
*MODEL_SPACE
0
ENDBLK
5
21
100
AcDbEntity
100
AcDbBlockEnd
0
BLOCK
5
1C
100
AcDbEntity
100
AcDbBlockBegin
2
*PAPER_SPACE
0
ENDBLK
5
1D
100
AcDbEntity
100
AcDbBlockEnd
0
ENDSEC
0
SECTION
2
ENTITIES
0
CIRCLE
5
100
100
AcDbEntity
8
0
100
AcDbCircle
10
19.327585309407414
20
0.6666660979390665
30
0
40
1.9999999999999996
0
CIRCLE
5
101
100
AcDbEntity
8
0
100
AcDbCircle
10
30.760112068250493
20
57.591613656726025
30
0
40
2.0000000000000018
0
CIRCLE
5
102
100
AcDbEntity
8
0
100
AcDbCircle
10
-19.327585309407397
20
0.6666660979390665
30
0
40
1.9999999999999996
0
CIRCLE
5
103
100
AcDbEntity
8
0
100
AcDbCircle
10
-30.760112068250475
20
57.591613656726025
30
0
40
2.0000000000000018
0
CIRCLE
5
104
100
AcDbEntity
8
0
100
AcDbCircle
10
-31.201341833883408
20
92.004808749193813
30
0
40
1.9999999999999973
0
CIRCLE
5
105
100
AcDbEntity
8
0
100
AcDbCircle
10
-7.4217732954584655e-14
20
147.00000219047072
30
0
40
1.9999989718198563
0
CIRCLE
5
106
100
AcDbEntity
8
0
100
AcDbCircle
10
31.201341833883426
20
92.004808749193813
30
0
40
1.9999999999999973
0
CIRCLE
5
107
100
AcDbEntity
8
0
100
AcDbCircle
10
6.9388939039072284e-15
20
37.500000000000014
30
0
40
3.1000000000000005
0
CIRCLE
5
108
100
AcDbEntity
8
0
100
AcDbCircle
10
8.8817841970012523e-15
20
73.500000000000014
30
0
40
3.1000000000000014
0
LWPOLYLINE
5
109
100
AcDbEntity
8
0
100
AcDbPolyline
90
8
70
1
43
0.0
10
20.741798953440018
20
-7.3333337828516747
42
-0.70710678513781455
10
-20.741798953440007
20
-7.3333337828516809
10
-32.526911995167282
20
26.000000171363375
42
-0.085116967524218226
10
-34.499999392281637
20
37.493524463997247
10
-35.497066213856939
20
115.04361294042701
42
-1.0129397174752197
10
35.497066213856961
20
115.04361294042729
10
34.499999392281651
20
37.493524463997268
42
-0.085116967524218448
10
32.526911995167289
20
26.000000171363364
0
CIRCLE
5
110
100
AcDbEntity
8
0
100
AcDbCircle
10
1.1102230246251565e-14
20
115.50000116229057
30
0
40
10.1
0
ENDSEC
0
SECTION
2
OBJECTS
0
DICTIONARY
5
C
100
AcDbDictionary
3
ACAD_GROUP
350
D
3
ACAD_MLINESTYLE
350
17
0
DICTIONARY
5
D
100
AcDbDictionary
0
DICTIONARY
5
1A
330
C
100
AcDbDictionary
0
DICTIONARY
5
17
100
AcDbDictionary
0
ENDSEC
0
EOF
